Aprende un bajeo de Rock and Roll en guitarra

Veamos un bajeo muy movido para que te diviertas tocando el clásico Rock and Roll:

Instrucciones:

Bajeo de Rock and Roll en Tono de E

En la parte superior de las tablaturas están los acordes que se usan para acompañar el bajeo, que es en tono de E y en la parte de abajo están los nombres de las notas que se ejecutan en el traste que se pisa en ese momento.



 

 E                         E
6E--0--4-----------------4-|--0--4-----------------4-|
5A--------2--4--5--4--2----|--------2--4--5--4--2----|
4D-------------------------|-------------------------|
3G-------------------------|-------------------------|
2B-------------------------|-------------------------|
1e-------------------------|-------------------------|
    E  G# B  C# D  C# B  G#   E  G# B  C# D  C# B  G#
.
.
    A                         E
6E-------------------------|--0--4-----------------4-|
5A--0--4-----------------4-|--------2--4--5--4--2----|
4D--------2--4--5--4--2----|-------------------------|
3G-------------------------|-------------------------|
2B-------------------------|-------------------------|
1e-------------------------|-------------------------|
    A  C# E  F# G  F# E  C#   E  G# B  C# D  C# B  G#
.
.
    B7          A             E
6E-------------------------|--0--4-----------------4--|
5A--2--6--------0--4-------|--------2--4--5--4--2-----|
4D--------4--6--------2--4-|--------------------------|
3G-------------------------|--------------------------|
2B-------------------------|--------------------------|
1e-------------------------|--------------------------|
    B  D# F# G# A  C# E  F#   E  G# B  C# D  C# B  G#