Joan Sebastian – Juliantla acordes y letras de canciones, acordes, cómo jugar

Que tal saludos a todos, les dejo una canción bastante movida de un compositor mexicano que bastante tiempo se caracterizo por hacer canciones con toques countryJoan Sebastian, y su canción Juliantla, disfrútenla:


Joan Sebastian
Juliantla 

        A                                     E
6E----------------|-----------|-----------------|
5A----------------|-----------|-----------------|
4D----------------|-----------|-----------------|
3G----------------|-----------|-----------------|
2B----------------|-----------|---------------7-|
1e-9-10-12-12-12--|--9-10-12--|-9-10-10-9-7-9---|
		     4 veces

                         D                  E                  A
6E---0-0-4-4--------------------------------0-0-4-4------------0--
5A-----------2-2-2>4>2------------------------------2-2-2>4>2--0--
4D-----------------------0-0-4-4-------------------------------2--
3G-------------------------------2-2-2>4>2---------------------2--
2B-------------------------------------------------------------2--
1e-------------------------------------------------------------0--

 A
Yaaaaaaaaa
He andado mil lugares
Conocí bellas ciudades
                   D
Más hoy quiero volver
(Quiero volver si, si quiero volver)
        E7
A ese pueblo en la montaña
       D         E7
Donde tengo mi cabaña
        A
Y mi razón de ser

       A
Como añoro como extraño
Mi caballo mi rebaño
      D
Y mi perro fiel
(Quiero volver si, si quiero volver)
         E7
Con mis padres mis hermanos
      D          E7
Mis amigos y paisanos
              A
Yo quiero volver

6E-0--2--4------|
5A----------0---|
4D--------------|
3G--------------|
2B--------------|
1e--------------|

     A             D         
A Juuuuuuuuuuu Juliantla

6E-----------------------
5A-----------------------
4D--0-0-4-4--------------
3G----------2-2-2>4>2----
2B-----------------------
1e-----------------------
         3 veces

      E7
Ese pueblo en la montaña
        D            E7
Que de luz y sol se baña
       A
Cada amanecer

        A                                     E
6E----------------|-----------|-----------------|
5A----------------|-----------|-----------------|
4D----------------|-----------|-----------------|
3G----------------|-----------|-----------------|
2B----------------|-----------|---------------7-|
1e-9-10-12-12-12--|--9-10-12--|-9-10-10-9-7-9---|
		     4 veces

                         D                  E                  A
6E---0-0-4-4--------------------------------0-0-4-4------------0--
5A-----------2-2-2>4>2------------------------------2-2-2>4>2--0--
4D-----------------------0-0-4-4-------------------------------2--
3G-------------------------------2-2-2>4>2---------------------2--
2B-------------------------------------------------------------2--
1e-------------------------------------------------------------0--

 A
Yaaaaaaaaa
Conocí Paris Chicago
Medio mundo he sido un vago
           D
Más hoy quiero volver
(Quiero volver si, si quiero volver)
         E7
Con mis padres mis hermanos
      D          E7                 A
Mis amigos y paisanos yo quiero volver

Como extraño aquellos suelos
Los cuentos de los abuelos
        D
Como quiero volver
(Quiero volver si, si quiero volver)
      E7
Ese pueblo en la montaña
       D         E7
Donde tengo mi cabaña
        A
Y mi razón de ser

6E-0--2--4------|
5A----------0---|
4D--------------|
3G--------------|
2B--------------|
1e--------------|

   A               D
A Juuuuuuuuuuu Juliantla

6E-----------------------
5A-----------------------
4D--0-0-4-4--------------
3G----------2-2-2>4>2----
2B-----------------------
1e-----------------------
         3 veces
     E7
Ese pueblo en la montaña
        D            E7         A
Que de luz y sol se baña cada amanecer

6E-0--2--4------|
5A----------0---|
4D--------------|
3G--------------|
2B--------------|
1e--------------|
   A               D
A Juuuuuuuuuuu Juliantla

6E-----------------------
5A-----------------------
4D--0-0-4-4--------------
3G----------2-2-2>4>2----
2B-----------------------
1e-----------------------
         3 veces
      E7
Ese pueblo en la montaña
       D          E7                 A
Donde tengo mi cabaña y mi razón de ser

6E----0--4------|
5A-0--------0---|
4D--------------|
3G--------------|
2B--------------|
1e--------------|

Acordes Utilizados:

Nota:
En las tablaturas de los Riffs hay un símbolo > que indica que la nota que está antes y la que esta después, se tocan con una sola pulsación de la cuerda y se pisa mientras la cuerda sigue vibrando.