Kansas Polvo en el viento (Dust in the wind) Intro acordes y letras de canciones, acordes, cómo jugar

Ya practicaron el ejercio anterior del arpegio de la canción del grupo Kansas, Polvo en el viento (Dust in the wind), ahora toca integrarlo con los acordes correpondientes, para ello debemos saber lo siguiente, la intro  de la canción es una combinación de tres cosas, el acorde de C, el acorde de Am y un juego de notas que se va haciendo de la siguiente forma:



 
Con acorde C:

Con acorde Am:

Con acorde C:

con acorde Am:

De ftal manera que nos quedan de la siguiente forma ya con el arpegio integrado:

    C               Cmaj7           Cadd3
1e|---------------|---------------|-----------------
2B|-1-------1-----|-0-------0-----|-3-------3-------
3G|-----0-------0-|-----0-------0-|-----0-------0---
4D|---2-------2---|---2-------2---|---2-------2-----
5A|-3-----3-------|-3-----3-------|-3-----3---------
6E|---------------|---------------|-----------------

    C               Asus2           Asus4
1e|---------------|---------------|-----------------
2B|-1-------1-----|-0-------0-----|-3-------3-------
3G|-----0-------0-|-----2-------2-|-----2-------2---
4D|---2-------2---|---2-------2---|---2-------2-----
5A|-3-----3-------|-0-----0-------|-0-----0---------
6E|---------------|---------------|-----------------

    Am              Asus2           Cadd3
1e|---------------|---------------|-----------------
2B|-1-------1-----|-0-------0-----|-3-------3-------
3G|-----2-------2-|-----2-------2-|-----0-------0---
4D|---2-------2---|---2-------2---|---2-------2-----
5A|-0-----0-------|-0-----0-------|-3-----3---------
6E|---------------|---------------|-----------------

    C               Cmaj7           Cadd3
1e|---------------|---------------|-----------------
2B|-1-------1-----|-0-------0-----|-3-------3-------
3G|-----0-------2-|-----0-------0-|-----0-------0---
4D|---2-------2---|---2-------2---|---2-------2-----
5A|-3-----3-------|-3-----3-------|-3-----3---------
6E|---------------|---------------|-----------------

    Am              Asus2           Asus4
1e|---------------|---------------|-----------------
2B|-1-------1-----|-0-------0-----|-3-------3-------
3G|-----2-------2-|-----2-------2-|-----2-------2---
4D|---2-------2---|---2-------2---|---2-------2-----
5A|-0-----0-------|-0-----0-------|-0-----0---------
6E|---------------|---------------|-----------------

    Am
1e|---------------|
2B|-1-------1-----|
3G|-----2-------2-|
4D|---2-------2---|
5A|-0-----0-------|
6E|---------------|

Los acordes que utilizamos son: