«

»

Los Apson – Fue en un café

Seguimos con los clásico de los 60´s, y ahora toca el turno a una canción muy interesante, romántica, triste y melancólica.
Algo que debes de cuidar de esta canción son las cejillas, hago incapíe en ello debido a que es lo más dificil de dominar de la guitarra, pero cuando tienes cierto control, las canciones suenan mucho mejor.

Los Apson
Fue en un café

Intro:
   F             3 ó 4 veces   
4|-------------|----------|
5|----0-3------|--0-3-----|
6|-1-------0-1-|------0-1-|

        F                       
Cuando yo recuerdo
                 C
que una vez la abandoné
          Gm
y hoy me pongo a llorar
     C7                     F
y no sé qué hacer para olvidar..

F7       A#  A#m               F      
oh yo no se,      que voy a hacer,
      Gm               C7
su ausencia me mata y yo
             F
no puedo volver.

             Dm                   C
Fue en un café... donde yo la dejé
               Dm                    C  
fue en en un café..  donde la abandoné
             Dm                  C
fue en un café.. donde la vi llorar
            Dm                 C
fue en un café y no supe escuchar
            Dm
fue en un café, eh eh eh.

1|------------------------
2|---------0-0/2----------
3|----0-2--------2/0-0----
4|--3------------------3--
5|------------------------
6|------------------------

        F
cuando yo recuerdo
                    C
que una vez me engañó
                    Gm            
y el dolor me hace ver,
          C7              F
que al dejarla yo tuve razón.

F7       A#  A#m               F      
oh yo no se,      que voy a hacer,
      Gm               C7
su ausencia me mata y yo
             F   
no puedo volver.

             Dm                   C
Fue en un café... donde yo la dejé
               Dm                    C  
fue en en un café..  donde la abandoné
             Dm                  C
fue en un café.. donde la vi llorar
            Dm                 C
fue en un café y no supe escuchar
            Dm
fue en un café, eh eh eh.
                        F                          C
1|------------------------|--------------------------|
2|---------0-0/2----------|--------------------------|
3|----0-2--------2/0-0----|--------------------------|
4|--3------------------3--|-0-2-2/3-3-3-3-2-0----2-2-|
5|------------------------|-------------------3------|
6|------------------------|--------------------------|
         Gm                               C7
1|----------|----------------------------------------|
2|----------|----------------------------------------|
3|-3b2b0-0--|-0-2-2/3-2--0-2/3-2--0-2/3-2-0----------|
4|----------|--------------------------------3-2-0---|
5|----------|--------------------------------------3-|
6|----------|----------------------------------------|
      F          F7
1|-------0----------|
2|-0-0/2---2/0------|
3|-------------2----|
4|---------------3--|
5|------------------|
6|------------------|

F7       A#  A#m               F      
oh yo no se,      que voy a hacer,
      Gm               C7
su ausencia me mata y yo
             F   
no puedo volver.

             Dm                   C
Fue en un café... donde yo la dejé
               Dm                    C  
fue en en un café..  donde la abandoné
             Dm                  C
fue en un café.. donde la vi llorar
            Dm                 C
fue en un café y no supe escuchar
            Dm
fue en un café, eh eh eh.

Acordes Utilizados
Fa mayorDoSolmenorDo7Fa7LasostenidoLa # mRemenor

PrintFriendly

Un comentario

Sin pings

  1. roberto osuna escribió:

    exelente ayuda para mi, muy completa y quisiera que siguieran poniendo este tipo de canciones pelicidades.

Deja un comentario

Tu email nunca se publicará.

Puedes utilizar las siguientes etiquetas y atributos HTML: <a href="" title=""> <abbr title=""> <acronym title=""> <b> <blockquote cite=""> <cite> <code> <del datetime=""> <em> <i> <q cite=""> <strike> <strong>