Piero – Llegando, llegaste acordes y letras de canciones, acordes, cómo jugar

Esta es una canción muy romántica y juvenil del compositor Piero, que me es muy grato cantar cuando tengo la oportunidad, espero que les guste y que la disfruten también.
Noten que en la última parte de la canción hay un cambio de medio tono hacia arriba, de tal forma que C cambia a C#, F cambia a F# y G cambia a G#, también hay que hacer incapié que en el vídeo, se alcanza a ver que se usa capotrasto, se pone en el tercer traste, por lo que estas notas que estoy publicando, se necesitarían trasportar de C a A para poderse tocar como en el vídeo, inténtenlo y practiquen:


Piero
Llegando Llegaste
    F             C             G7           C
6E--------------|-------------|----------------|
5A--------------|-------------|----------------|
4D--------------|-------------|----------------|
3G--------------|-------------|----------------|
2B--6---6---6---|-5---5---5---|----------------|
1e----5---5---5-|---3---3---3-|-7-5-3-5-7-10-8-|

    F             C             G7           C
6E--------------|-------------|-----------------------|
5A--------------|-------------|-----------------------|
4D--------------|-------------|--------------------10-|
3G--------------|-------------|------------------9----|
2B--6---6---6---|-5---5---5---|----------------8------|
1e----5---5---5-|---3---3---3-|-7-5-3-5-7-10-8--------|

 F                  C
Las manos en el bolsillos
 F                C
caminando por el pasto
 F                       C
con los libros bajo el brazo
G7               C
andaba silbando bajo

 F                 C
Me prendí un cigarrillo
 F                   C
no pensaba en las materias
F                      C
y siempre me hacía la rata
 G7                   C
con el pibe de a la vuelta

F                   C
Me hubiera gustado verte
F                 C
esperarte a la salida
  F                    C
preguntarte que haces piba
 G7              C
si venís al matiné

    C         F    G
Llegando, llegaste
             C
te miré de frente
                 F     G
después puse un nombre
             C
te llamé ternura
              F     G
llegando, llegaste
               C
nos fuimos pensando
           F     G
me fuí animando
            C
luego te besé

    F             C             G7           C
6E--------------|-------------|----------------|
5A--------------|-------------|----------------|
4D--------------|-------------|----------------|
3G--------------|-------------|----------------|
2B--6---6---6---|-5---5---5---|----------------|
1e----5---5---5-|---3---3---3-|-7-5-3-5-7-10-8-|

    F             C             G7           C
6E--------------|-------------|------------------|
5A--------------|-------------|------------------|
4D--------------|-------------|------------------|
3G--------------|-------------|------------------|
2B--6---6---6---|-5---5---5---|------------------|
1e----5---5---5-|---3---3---3-|-7-5-3-5-7-10-8---|

  F      C
Y una mañana
  F                   C
mientras el café mezclabas
   F                C  
en una servilleta blanca
           G7
yo te dibujaba
           C
yo te dibujaba
  F      C
Y una mañana
  F                   C
mientras el café mezclaba
   F                C  
en una servilleta blanca
           G7
yo te dibujaba
           C
yo te dibujaba

    C         F    G
Llegando, llegaste
             C
te miré de frente
                 F     G
después puse un nombre
             C
te llamé ternura
              F     G
llegando, llegaste
               C
nos fuimos pensando
           F     G
me fuí animando
            C
luego te besé

    F             C             G7           C
6E--------------|-------------|----------------|
5A--------------|-------------|----------------|
4D--------------|-------------|----------------|
3G--------------|-------------|----------------|
2B--6---6---6---|-5---5---5---|----------------|
1e----5---5---5-|---3---3---3-|-7-5-3-5-7-10-8-|

    F             C             G7           C
6E--------------|-------------|------------------|
5A--------------|-------------|------------------|
4D--------------|-------------|------------------|
3G--------------|-------------|------------------|
2B--6---6---6---|-5---5---5---|------------------|
1e----5---5---5-|---3---3---3-|-7-5-3-5-7-10-8---|

  F      C
Y una mañana
  F                   C
mientras el café mezclabas
   F                C  
en una servilleta blanca
           G7
yo te dibujaba
           C
yo te dibujaba

  F      C
Y una mañana
  F                   C
mientras el café mezclaba
   F                C  
en una servilleta blanca
           G7
yo te dibujaba
           C
yo te dibujaba

    C#        F#   G#
Llegando, llegaste
             C#
te miré de frente
                 F#     G#
después puse un nombre
             C#
te llamé ternura
              F#     G#
llegando, llegaste
               C#
nos fuimos pensando
           F#    G#
me fuí animando
            C#
luego te besé